AnasayfaGaleriSSSAramaÜye ListesiKullanıcı GruplarıKayıt OlGiriş yapDuman Fotografları
Kimler hatta?
Toplam 0 kullanıcı online :: 0 Kayıtlı, 0 Gizli ve 0 Misafir :: 1 Arama motorları

Yok

Sitede bugüne kadar en çok 38 kişi C.tesi Tem. 29, 2017 12:32 pm tarihinde online oldu.
Istatistikler
Toplam 244 kayıtlı kullanıcımız var
Son kaydolan kullanıcımız: ilkemoyun

Kullanıcılarımız toplam 1012 mesaj attılar bunda 218 konu
En son konular
» Gece İçinde Saklı indir
Ptsi Eyl. 23, 2013 5:09 pm tarafından ilkemoyun

» Kreş - Zaman Yok Full Albüm
C.tesi Nis. 06, 2013 12:29 pm tarafından pickp0cket

» Gece İçinde Saklı İndir
Çarş. Şub. 27, 2013 8:27 am tarafından oziiiii

» Second Yok Artık İndir
Çarş. Eyl. 07, 2011 5:44 pm tarafından hasanali123

» Şebnem Ferah - Albüm Dışı Şarkılar
Çarş. Haz. 22, 2011 6:59 pm tarafından excalivour

» Teneke -Sıra Bizde Full Albüm
C.tesi Kas. 20, 2010 12:18 pm tarafından walkalone

» PickPocket Hayalle Gerçek Arasında İndir
Salı Ekim 12, 2010 4:49 pm tarafından abandoned

» İstek ALbüm..
C.tesi Eyl. 04, 2010 10:05 pm tarafından converserpil

» Barış Akarsu - Ayrılık Zamansız Gelir - Full Albüm
Perş. Ağus. 12, 2010 2:09 am tarafından saman96

» Ogün Şanlısoy - Korkma 2007
Ptsi Mayıs 31, 2010 11:08 am tarafından harlindon

» Teoman Tüm Albümleri
Paz Ara. 13, 2009 6:54 pm tarafından smyyy

» Hayko Cepkin Tüm Albümler
Paz Ağus. 23, 2009 3:09 pm tarafından qqwwaass

» Gripin Full Albüm
Salı Ağus. 04, 2009 12:25 pm tarafından mydestiny

» "Seni kendime Sakladım" albumünün en güzel şarkısı sizce ?
Paz Tem. 26, 2009 8:45 pm tarafından dilenk

» özgür irademiz yoktur
C.tesi Tem. 18, 2009 7:40 am tarafından zxzx


Paylaş | 
 

 pinhani-- herkes aynı hayatta

Önceki başlık Sonraki başlık Aşağa gitmek 
YazarMesaj
hakankartal

avatar

Erkek
Mesaj Sayısı : 13
Yaş : 25
Lakap : haki
Kayıt tarihi : 07/08/08

MesajKonu: pinhani-- herkes aynı hayatta   Perş. Ağus. 07, 2008 5:39 pm

giriş:Em-F(x2)


Em
Herkes Aynı Hayatta
F
Kendini Birşey Sanma
G
Ne Kadar Çok BiLirsen
F
O Kadar beLa Başa


Em
Sen BiLirsin AsLında
F
AkLımdan geçenLeri
G
Zaman Herşeyi Çözer
F
Şu BekLemek oLmasa…

B--12-----10-9--10--9-------------
G----------------------9--7-------

Am
GözLerimi Açsamda
Dm
Sen Çıksan Karşıma
Em
GeL Beni Azad et
Am
KayboLdum KaranLıkta
F
Ben Bizi Unutmam
Em
Gitmek Yakışmaz Bana
Dm
YoLcuyuz Hayatta
F Am
Sen geL Otur Yanımaaa..


E-----------------------------------------------------------
B-----------------------------------------------------------
G--------------------------7--7h9--7---------7--------------
D-0h10-9-10-9--9h10--9-10-------------10-10------9----------
A-----------------------------------------------------------
E-----------------------------------------------------------


E-----------------------------------------------------------
B-----------------------------------------------------------
G-----------------------------------------7-----------------
D-10s9-7-9-------7-9---10s9-7-9-----7-9------10-9---10-9-7--
A------------10------------------10-------------------------
E-----------------------------------------------------------



E-----------------------------------------------------------
B-----------------------------------------------------------
G-----------------------------------------------------------
D------7-----7------5h7-----7-9---10-9-7--------------------
A---10---10-----10-------10--------------10-10--------------
E-----------------------------------------------------------


E-----------------------------------------------------------
B-----------------------------------------------------------
G--------------------------------7----8h10-8-7--------------
D------------8s7----8h10-7-8-10----10-----------------------
A-8s7--8-10------10-----------------------------------------
E-----------------------------------------------------------
Sayfa başına dön Aşağa gitmek
Kullanıcı profilini gör
 
pinhani-- herkes aynı hayatta
Önceki başlık Sonraki başlık Sayfa başına dön 
1 sayfadaki 1 sayfası
 Similar topics
-
» Bazı Kolay Kelimeler ( günlük hayatta kullanılan )

Bu forumun müsaadesi var:Bu forumdaki mesajlara cevap veremezsiniz
Duman Fan :: Müzik :: Akor ve Tablar-
Buraya geçin: